ISO-10303-21;
HEADER;
/* Generated by software containing ST-Developer
 * from STEP Tools, Inc. (www.steptools.com) 
 */

FILE_DESCRIPTION(
/* description */ (''),
/* implementation_level */ '2;1');

FILE_NAME(
/* name */ 'QB_100_N',
/* time_stamp */ '2012-11-23T16:43:39+08:00',
/* author */ (''),
/* organization */ (''),
/* preprocessor_version */ 'ST-DEVELOPER v9',
/* originating_system */ 'UGS - NX 4.0',
/* authorisation */ '');

FILE_SCHEMA (('CONFIG_CONTROL_DESIGN'));
ENDSEC;

DATA;
#10=SHAPE_REPRESENTATION_RELATIONSHIP('None',
'relationship between Admi843Bxmwj-None and Admi843Bxmwj-None',#94,#11);
#11=ADVANCED_BREP_SHAPE_REPRESENTATION('Admi843Bxmwj-None',(#95),#529);
#12=CC_DESIGN_APPROVAL(#24,(#82));
#13=CC_DESIGN_APPROVAL(#25,(#84));
#14=CC_DESIGN_APPROVAL(#26,(#31));
#15=APPROVAL_PERSON_ORGANIZATION(#69,#24,#18);
#16=APPROVAL_PERSON_ORGANIZATION(#70,#25,#19);
#17=APPROVAL_PERSON_ORGANIZATION(#71,#26,#20);
#18=APPROVAL_ROLE('approver');
#19=APPROVAL_ROLE('approver');
#20=APPROVAL_ROLE('approver');
#21=APPROVAL_DATE_TIME(#39,#24);
#22=APPROVAL_DATE_TIME(#40,#25);
#23=APPROVAL_DATE_TIME(#41,#26);
#24=APPROVAL(#27,' ');
#25=APPROVAL(#28,' ');
#26=APPROVAL(#29,' ');
#27=APPROVAL_STATUS('not_yet_approved');
#28=APPROVAL_STATUS('not_yet_approved');
#29=APPROVAL_STATUS('not_yet_approved');
#30=CC_DESIGN_SECURITY_CLASSIFICATION(#31,(#84));
#31=SECURITY_CLASSIFICATION(' ',' ',#32);
#32=SECURITY_CLASSIFICATION_LEVEL('confidential');
#33=CC_DESIGN_DATE_AND_TIME_ASSIGNMENT(#37,#35,(#82));
#34=CC_DESIGN_DATE_AND_TIME_ASSIGNMENT(#38,#36,(#31));
#35=DATE_TIME_ROLE('creation_date');
#36=DATE_TIME_ROLE('classification_date');
#37=DATE_AND_TIME(#52,#42);
#38=DATE_AND_TIME(#53,#43);
#39=DATE_AND_TIME(#54,#44);
#40=DATE_AND_TIME(#55,#45);
#41=DATE_AND_TIME(#56,#46);
#42=LOCAL_TIME(0,0,0.,#47);
#43=LOCAL_TIME(0,0,0.,#48);
#44=LOCAL_TIME(0,0,0.,#49);
#45=LOCAL_TIME(0,0,0.,#50);
#46=LOCAL_TIME(0,0,0.,#51);
#47=COORDINATED_UNIVERSAL_TIME_OFFSET(0,0,.BEHIND.);
#48=COORDINATED_UNIVERSAL_TIME_OFFSET(0,0,.BEHIND.);
#49=COORDINATED_UNIVERSAL_TIME_OFFSET(0,0,.BEHIND.);
#50=COORDINATED_UNIVERSAL_TIME_OFFSET(0,0,.BEHIND.);
#51=COORDINATED_UNIVERSAL_TIME_OFFSET(0,0,.BEHIND.);
#52=CALENDAR_DATE(0,1,1);
#53=CALENDAR_DATE(0,1,1);
#54=CALENDAR_DATE(0,1,1);
#55=CALENDAR_DATE(0,1,1);
#56=CALENDAR_DATE(0,1,1);
#57=CC_DESIGN_PERSON_AND_ORGANIZATION_ASSIGNMENT(#65,#61,(#82,#84));
#58=CC_DESIGN_PERSON_AND_ORGANIZATION_ASSIGNMENT(#66,#62,(#86));
#59=CC_DESIGN_PERSON_AND_ORGANIZATION_ASSIGNMENT(#67,#63,(#84));
#60=CC_DESIGN_PERSON_AND_ORGANIZATION_ASSIGNMENT(#68,#64,(#31));
#61=PERSON_AND_ORGANIZATION_ROLE('creator');
#62=PERSON_AND_ORGANIZATION_ROLE('design_owner');
#63=PERSON_AND_ORGANIZATION_ROLE('design_supplier');
#64=PERSON_AND_ORGANIZATION_ROLE('classification_officer');
#65=PERSON_AND_ORGANIZATION(#79,#72);
#66=PERSON_AND_ORGANIZATION(#79,#73);
#67=PERSON_AND_ORGANIZATION(#79,#74);
#68=PERSON_AND_ORGANIZATION(#79,#75);
#69=PERSON_AND_ORGANIZATION(#79,#76);
#70=PERSON_AND_ORGANIZATION(#79,#77);
#71=PERSON_AND_ORGANIZATION(#79,#78);
#72=ORGANIZATION(' ',' ',' ');
#73=ORGANIZATION(' ',' ',' ');
#74=ORGANIZATION(' ',' ',' ');
#75=ORGANIZATION(' ',' ',' ');
#76=ORGANIZATION(' ',' ',' ');
#77=ORGANIZATION(' ',' ',' ');
#78=ORGANIZATION(' ',' ',' ');
#79=PERSON(' ',' ',' ',(' '),$,$);
#80=SHAPE_DEFINITION_REPRESENTATION(#81,#94);
#81=PRODUCT_DEFINITION_SHAPE('','',#82);
#82=PRODUCT_DEFINITION(' ','',#84,#83);
#83=DESIGN_CONTEXT('',#93,'design');
#84=PRODUCT_DEFINITION_FORMATION_WITH_SPECIFIED_SOURCE(' ',' ',#86,.NOT_KNOWN.);
#85=PRODUCT_RELATED_PRODUCT_CATEGORY('detail','',(#86));
#86=PRODUCT('Admi843Bxmwj','Admi843Bxmwj',' ',(#91));
#87=PRODUCT_CATEGORY_RELATIONSHIP(' ',' ',#89,#90);
#88=PRODUCT_CATEGORY_RELATIONSHIP('','',#90,#85);
#89=PRODUCT_CATEGORY('part',' ');
#90=PRODUCT_CATEGORY(' ','');
#91=MECHANICAL_CONTEXT(' ',#93,'mechanical');
#92=APPLICATION_PROTOCOL_DEFINITION('international standard',
'config_control_design',1994,#93);
#93=APPLICATION_CONTEXT(
'configuration controlled 3D designs of mechanical parts and assemblies
');
#94=SHAPE_REPRESENTATION('Admi843Bxmwj-None',(#347),#529);
#95=MANIFOLD_SOLID_BREP('',#96);
#96=CLOSED_SHELL('',(#106,#107,#108,#109,#110,#111,#112,#113,#114,#115,#116,
#117,#118,#119));
#97=TOROIDAL_SURFACE('',#362,11.5,5.00000000000001);
#98=(
BOUNDED_CURVE()
B_SPLINE_CURVE(3,(#485,#486,#487,#488),.UNSPECIFIED.,.F.,.F.)
B_SPLINE_CURVE_WITH_KNOTS((4,4),(0.,1.),.UNSPECIFIED.)
CURVE()
GEOMETRIC_REPRESENTATION_ITEM()
RATIONAL_B_SPLINE_CURVE((1.,0.333333333333333,0.333333333333333,1.))
REPRESENTATION_ITEM('')
);
#99=CYLINDRICAL_SURFACE('',#354,3.30000000000003);
#100=CYLINDRICAL_SURFACE('',#358,15.);
#101=CYLINDRICAL_SURFACE('',#366,7.50000000000001);
#102=B_SPLINE_CURVE_WITH_KNOTS('',1,(#458,#459),.UNSPECIFIED.,.F.,.F.,(2,
2),(0.,1.),.UNSPECIFIED.);
#103=B_SPLINE_CURVE_WITH_KNOTS('',1,(#464,#465),.UNSPECIFIED.,.F.,.F.,(2,
2),(0.,1.),.UNSPECIFIED.);
#104=B_SPLINE_CURVE_WITH_KNOTS('',3,(#500,#501,#502,#503,#504,#505),.UNSPECIFIED.,
.F.,.F.,(4,2,4),(0.,0.5,1.),.UNSPECIFIED.);
#105=B_SPLINE_CURVE_WITH_KNOTS('',3,(#506,#507,#508,#509,#510,#511),.UNSPECIFIED.,
.F.,.F.,(4,2,4),(0.,0.5,1.),.UNSPECIFIED.);
#106=ADVANCED_FACE('',(#151,#130),#120,.T.);
#107=ADVANCED_FACE('',(#152,#153),#99,.F.);
#108=ADVANCED_FACE('',(#154,#131),#121,.T.);
#109=ADVANCED_FACE('',(#155,#156),#100,.T.);
#110=ADVANCED_FACE('',(#157,#158,#132,#159),#122,.F.);
#111=ADVANCED_FACE('',(#133),#97,.T.);
#112=ADVANCED_FACE('',(#134),#123,.T.);
#113=ADVANCED_FACE('',(#135),#124,.T.);
#114=ADVANCED_FACE('',(#160,#161),#101,.T.);
#115=ADVANCED_FACE('',(#162,#136),#125,.F.);
#116=ADVANCED_FACE('',(#137),#126,.F.);
#117=ADVANCED_FACE('',(#138),#127,.F.);
#118=ADVANCED_FACE('',(#139),#128,.F.);
#119=ADVANCED_FACE('',(#140),#129,.F.);
#120=PLANE('',#350);
#121=PLANE('',#356);
#122=PLANE('',#361);
#123=PLANE('',#363);
#124=PLANE('',#364);
#125=PLANE('',#367);
#126=PLANE('',#368);
#127=PLANE('',#369);
#128=PLANE('',#370);
#129=PLANE('',#371);
#130=FACE_OUTER_BOUND('',#164,.T.);
#131=FACE_OUTER_BOUND('',#168,.T.);
#132=FACE_OUTER_BOUND('',#173,.T.);
#133=FACE_OUTER_BOUND('',#175,.T.);
#134=FACE_OUTER_BOUND('',#176,.T.);
#135=FACE_OUTER_BOUND('',#177,.T.);
#136=FACE_OUTER_BOUND('',#181,.T.);
#137=FACE_OUTER_BOUND('',#182,.T.);
#138=FACE_OUTER_BOUND('',#183,.T.);
#139=FACE_OUTER_BOUND('',#184,.T.);
#140=FACE_OUTER_BOUND('',#185,.T.);
#141=CIRCLE('',#348,7.50000000000001);
#142=CIRCLE('',#349,15.4999999814564);
#143=CIRCLE('',#351,3.30000000000003);
#144=CIRCLE('',#352,3.30000000000003);
#145=CIRCLE('',#353,3.30000000000003);
#146=CIRCLE('',#355,15.);
#147=CIRCLE('',#357,15.);
#148=CIRCLE('',#359,7.50000000000001);
#149=CIRCLE('',#360,15.4999999814564);
#150=CIRCLE('',#365,7.50000000000001);
#151=FACE_BOUND('',#163,.T.);
#152=FACE_BOUND('',#165,.T.);
#153=FACE_BOUND('',#166,.T.);
#154=FACE_BOUND('',#167,.T.);
#155=FACE_BOUND('',#169,.T.);
#156=FACE_BOUND('',#170,.T.);
#157=FACE_BOUND('',#171,.T.);
#158=FACE_BOUND('',#172,.T.);
#159=FACE_BOUND('',#174,.T.);
#160=FACE_BOUND('',#178,.T.);
#161=FACE_BOUND('',#179,.T.);
#162=FACE_BOUND('',#180,.T.);
#163=EDGE_LOOP('',(#186,#187,#188,#189));
#164=EDGE_LOOP('',(#190,#191,#192,#193));
#165=EDGE_LOOP('',(#194,#195,#196,#197,#198,#199));
#166=EDGE_LOOP('',(#200));
#167=EDGE_LOOP('',(#201,#202,#203,#204));
#168=EDGE_LOOP('',(#205));
#169=EDGE_LOOP('',(#206));
#170=EDGE_LOOP('',(#207));
#171=EDGE_LOOP('',(#208,#209));
#172=EDGE_LOOP('',(#210,#211));
#173=EDGE_LOOP('',(#212,#213,#214,#215));
#174=EDGE_LOOP('',(#216));
#175=EDGE_LOOP('',(#217,#218,#219,#220));
#176=EDGE_LOOP('',(#221,#222,#223,#224));
#177=EDGE_LOOP('',(#225,#226,#227,#228));
#178=EDGE_LOOP('',(#229,#230,#231,#232));
#179=EDGE_LOOP('',(#233));
#180=EDGE_LOOP('',(#234));
#181=EDGE_LOOP('',(#235));
#182=EDGE_LOOP('',(#236,#237,#238,#239));
#183=EDGE_LOOP('',(#240,#241,#242,#243));
#184=EDGE_LOOP('',(#244,#245,#246,#247));
#185=EDGE_LOOP('',(#248,#249,#250,#251));
#186=ORIENTED_EDGE('',*,*,#278,.F.);
#187=ORIENTED_EDGE('',*,*,#279,.F.);
#188=ORIENTED_EDGE('',*,*,#280,.F.);
#189=ORIENTED_EDGE('',*,*,#281,.F.);
#190=ORIENTED_EDGE('',*,*,#282,.F.);
#191=ORIENTED_EDGE('',*,*,#283,.T.);
#192=ORIENTED_EDGE('',*,*,#284,.T.);
#193=ORIENTED_EDGE('',*,*,#285,.T.);
#194=ORIENTED_EDGE('',*,*,#286,.F.);
#195=ORIENTED_EDGE('',*,*,#287,.T.);
#196=ORIENTED_EDGE('',*,*,#288,.F.);
#197=ORIENTED_EDGE('',*,*,#288,.T.);
#198=ORIENTED_EDGE('',*,*,#289,.F.);
#199=ORIENTED_EDGE('',*,*,#286,.T.);
#200=ORIENTED_EDGE('',*,*,#290,.T.);
#201=ORIENTED_EDGE('',*,*,#291,.F.);
#202=ORIENTED_EDGE('',*,*,#292,.F.);
#203=ORIENTED_EDGE('',*,*,#293,.F.);
#204=ORIENTED_EDGE('',*,*,#294,.F.);
#205=ORIENTED_EDGE('',*,*,#295,.T.);
#206=ORIENTED_EDGE('',*,*,#295,.F.);
#207=ORIENTED_EDGE('',*,*,#296,.T.);
#208=ORIENTED_EDGE('',*,*,#297,.F.);
#209=ORIENTED_EDGE('',*,*,#297,.T.);
#210=ORIENTED_EDGE('',*,*,#287,.F.);
#211=ORIENTED_EDGE('',*,*,#289,.T.);
#212=ORIENTED_EDGE('',*,*,#298,.T.);
#213=ORIENTED_EDGE('',*,*,#299,.F.);
#214=ORIENTED_EDGE('',*,*,#300,.F.);
#215=ORIENTED_EDGE('',*,*,#301,.F.);
#216=ORIENTED_EDGE('',*,*,#296,.F.);
#217=ORIENTED_EDGE('',*,*,#302,.F.);
#218=ORIENTED_EDGE('',*,*,#285,.F.);
#219=ORIENTED_EDGE('',*,*,#303,.T.);
#220=ORIENTED_EDGE('',*,*,#301,.T.);
#221=ORIENTED_EDGE('',*,*,#282,.T.);
#222=ORIENTED_EDGE('',*,*,#302,.T.);
#223=ORIENTED_EDGE('',*,*,#300,.T.);
#224=ORIENTED_EDGE('',*,*,#304,.T.);
#225=ORIENTED_EDGE('',*,*,#303,.F.);
#226=ORIENTED_EDGE('',*,*,#284,.F.);
#227=ORIENTED_EDGE('',*,*,#305,.F.);
#228=ORIENTED_EDGE('',*,*,#298,.F.);
#229=ORIENTED_EDGE('',*,*,#304,.F.);
#230=ORIENTED_EDGE('',*,*,#299,.T.);
#231=ORIENTED_EDGE('',*,*,#305,.T.);
#232=ORIENTED_EDGE('',*,*,#283,.F.);
#233=ORIENTED_EDGE('',*,*,#306,.F.);
#234=ORIENTED_EDGE('',*,*,#290,.F.);
#235=ORIENTED_EDGE('',*,*,#306,.T.);
#236=ORIENTED_EDGE('',*,*,#278,.T.);
#237=ORIENTED_EDGE('',*,*,#307,.T.);
#238=ORIENTED_EDGE('',*,*,#291,.T.);
#239=ORIENTED_EDGE('',*,*,#308,.F.);
#240=ORIENTED_EDGE('',*,*,#279,.T.);
#241=ORIENTED_EDGE('',*,*,#308,.T.);
#242=ORIENTED_EDGE('',*,*,#294,.T.);
#243=ORIENTED_EDGE('',*,*,#309,.F.);
#244=ORIENTED_EDGE('',*,*,#280,.T.);
#245=ORIENTED_EDGE('',*,*,#309,.T.);
#246=ORIENTED_EDGE('',*,*,#293,.T.);
#247=ORIENTED_EDGE('',*,*,#310,.F.);
#248=ORIENTED_EDGE('',*,*,#281,.T.);
#249=ORIENTED_EDGE('',*,*,#310,.T.);
#250=ORIENTED_EDGE('',*,*,#292,.T.);
#251=ORIENTED_EDGE('',*,*,#307,.F.);
#252=VERTEX_POINT('',#442);
#253=VERTEX_POINT('',#443);
#254=VERTEX_POINT('',#445);
#255=VERTEX_POINT('',#447);
#256=VERTEX_POINT('',#450);
#257=VERTEX_POINT('',#451);
#258=VERTEX_POINT('',#453);
#259=VERTEX_POINT('',#455);
#260=VERTEX_POINT('',#460);
#261=VERTEX_POINT('',#461);
#262=VERTEX_POINT('',#463);
#263=VERTEX_POINT('',#466);
#264=VERTEX_POINT('',#469);
#265=VERTEX_POINT('',#472);
#266=VERTEX_POINT('',#473);
#267=VERTEX_POINT('',#475);
#268=VERTEX_POINT('',#477);
#269=VERTEX_POINT('',#480);
#270=VERTEX_POINT('',#483);
#271=VERTEX_POINT('',#489);
#272=VERTEX_POINT('',#490);
#273=VERTEX_POINT('',#492);
#274=VERTEX_POINT('',#493);
#275=VERTEX_POINT('',#495);
#276=VERTEX_POINT('',#497);
#277=VERTEX_POINT('',#518);
#278=EDGE_CURVE('',#252,#253,#311,.T.);
#279=EDGE_CURVE('',#254,#252,#312,.T.);
#280=EDGE_CURVE('',#255,#254,#313,.T.);
#281=EDGE_CURVE('',#253,#255,#314,.T.);
#282=EDGE_CURVE('',#256,#257,#315,.T.);
#283=EDGE_CURVE('',#256,#258,#141,.T.);
#284=EDGE_CURVE('',#258,#259,#316,.T.);
#285=EDGE_CURVE('',#259,#257,#142,.T.);
#286=EDGE_CURVE('',#260,#261,#102,.T.);
#287=EDGE_CURVE('',#260,#262,#143,.T.);
#288=EDGE_CURVE('',#263,#262,#103,.T.);
#289=EDGE_CURVE('',#260,#262,#144,.T.);
#290=EDGE_CURVE('',#264,#264,#145,.T.);
#291=EDGE_CURVE('',#265,#266,#317,.T.);
#292=EDGE_CURVE('',#267,#265,#318,.T.);
#293=EDGE_CURVE('',#268,#267,#319,.T.);
#294=EDGE_CURVE('',#266,#268,#320,.T.);
#295=EDGE_CURVE('',#269,#269,#146,.T.);
#296=EDGE_CURVE('',#270,#270,#147,.T.);
#297=EDGE_CURVE('',#271,#272,#98,.T.);
#298=EDGE_CURVE('',#273,#274,#321,.T.);
#299=EDGE_CURVE('',#275,#274,#148,.T.);
#300=EDGE_CURVE('',#276,#275,#322,.T.);
#301=EDGE_CURVE('',#273,#276,#149,.T.);
#302=EDGE_CURVE('',#257,#276,#104,.T.);
#303=EDGE_CURVE('',#259,#273,#105,.T.);
#304=EDGE_CURVE('',#275,#256,#323,.T.);
#305=EDGE_CURVE('',#274,#258,#324,.T.);
#306=EDGE_CURVE('',#277,#277,#150,.T.);
#307=EDGE_CURVE('',#253,#265,#325,.T.);
#308=EDGE_CURVE('',#252,#266,#326,.T.);
#309=EDGE_CURVE('',#254,#268,#327,.T.);
#310=EDGE_CURVE('',#255,#267,#328,.T.);
#311=LINE('',#441,#329);
#312=LINE('',#444,#330);
#313=LINE('',#446,#331);
#314=LINE('',#448,#332);
#315=LINE('',#449,#333);
#316=LINE('',#454,#334);
#317=LINE('',#471,#335);
#318=LINE('',#474,#336);
#319=LINE('',#476,#337);
#320=LINE('',#478,#338);
#321=LINE('',#491,#339);
#322=LINE('',#496,#340);
#323=LINE('',#513,#341);
#324=LINE('',#515,#342);
#325=LINE('',#521,#343);
#326=LINE('',#522,#344);
#327=LINE('',#524,#345);
#328=LINE('',#526,#346);
#329=VECTOR('',#374,1.);
#330=VECTOR('',#375,1.);
#331=VECTOR('',#376,1.);
#332=VECTOR('',#377,1.);
#333=VECTOR('',#378,1.);
#334=VECTOR('',#381,1.);
#335=VECTOR('',#394,1.);
#336=VECTOR('',#395,1.);
#337=VECTOR('',#396,1.);
#338=VECTOR('',#397,1.);
#339=VECTOR('',#406,1.);
#340=VECTOR('',#409,1.);
#341=VECTOR('',#416,1.);
#342=VECTOR('',#419,1.);
#343=VECTOR('',#428,1.);
#344=VECTOR('',#429,1.);
#345=VECTOR('',#432,1.);
#346=VECTOR('',#435,1.);
#347=AXIS2_PLACEMENT_3D('',#440,#372,#373);
#348=AXIS2_PLACEMENT_3D('',#452,#379,#380);
#349=AXIS2_PLACEMENT_3D('',#456,#382,#383);
#350=AXIS2_PLACEMENT_3D('',#457,#384,#385);
#351=AXIS2_PLACEMENT_3D('',#462,#386,#387);
#352=AXIS2_PLACEMENT_3D('',#467,#388,#389);
#353=AXIS2_PLACEMENT_3D('',#468,#390,#391);
#354=AXIS2_PLACEMENT_3D('',#470,#392,#393);
#355=AXIS2_PLACEMENT_3D('',#479,#398,#399);
#356=AXIS2_PLACEMENT_3D('',#481,#400,#401);
#357=AXIS2_PLACEMENT_3D('',#482,#402,#403);
#358=AXIS2_PLACEMENT_3D('',#484,#404,#405);
#359=AXIS2_PLACEMENT_3D('',#494,#407,#408);
#360=AXIS2_PLACEMENT_3D('',#498,#410,#411);
#361=AXIS2_PLACEMENT_3D('',#499,#412,#413);
#362=AXIS2_PLACEMENT_3D('',#512,#414,#415);
#363=AXIS2_PLACEMENT_3D('',#514,#417,#418);
#364=AXIS2_PLACEMENT_3D('',#516,#420,#421);
#365=AXIS2_PLACEMENT_3D('',#517,#422,#423);
#366=AXIS2_PLACEMENT_3D('',#519,#424,#425);
#367=AXIS2_PLACEMENT_3D('',#520,#426,#427);
#368=AXIS2_PLACEMENT_3D('',#523,#430,#431);
#369=AXIS2_PLACEMENT_3D('',#525,#433,#434);
#370=AXIS2_PLACEMENT_3D('',#527,#436,#437);
#371=AXIS2_PLACEMENT_3D('',#528,#438,#439);
#372=DIRECTION('',(0.,0.,1.));
#373=DIRECTION('',(1.,0.,0.));
#374=DIRECTION('',(0.707106781186547,0.,-0.707106781186548));
#375=DIRECTION('',(0.707106781186548,0.,0.707106781186547));
#376=DIRECTION('',(-0.707106781186548,0.,0.707106781186547));
#377=DIRECTION('',(-0.707106781186547,0.,-0.707106781186548));
#378=DIRECTION('',(-0.999390827019096,0.,0.034899496702501));
#379=DIRECTION('',(0.,-1.,0.));
#380=DIRECTION('',(0.,0.,1.));
#381=DIRECTION('',(-0.999390827019096,0.,-0.034899496702501));
#382=DIRECTION('',(0.,1.,0.));
#383=DIRECTION('',(0.,0.,1.));
#384=DIRECTION('',(0.,1.,0.));
#385=DIRECTION('',(0.,0.,1.));
#386=DIRECTION('',(0.,-1.,0.));
#387=DIRECTION('',(0.,0.,1.));
#388=DIRECTION('',(0.,1.,0.));
#389=DIRECTION('',(0.,0.,1.));
#390=DIRECTION('',(0.,1.,0.));
#391=DIRECTION('',(0.,0.,1.));
#392=DIRECTION('',(0.,1.,0.));
#393=DIRECTION('',(0.,0.,1.));
#394=DIRECTION('',(-0.707106781186547,0.,0.707106781186548));
#395=DIRECTION('',(0.707106781186547,0.,0.707106781186548));
#396=DIRECTION('',(0.707106781186548,0.,-0.707106781186547));
#397=DIRECTION('',(-0.707106781186548,0.,-0.707106781186547));
#398=DIRECTION('',(0.,-1.,0.));
#399=DIRECTION('',(0.,0.,-1.));
#400=DIRECTION('',(0.,-1.,0.));
#401=DIRECTION('',(0.,0.,-1.));
#402=DIRECTION('',(0.,-1.,0.));
#403=DIRECTION('',(0.,0.,-1.));
#404=DIRECTION('',(0.,-1.,0.));
#405=DIRECTION('',(0.,0.,-1.));
#406=DIRECTION('',(0.999390827019096,0.,0.034899496702501));
#407=DIRECTION('',(0.,1.,0.));
#408=DIRECTION('',(0.,0.,1.));
#409=DIRECTION('',(0.999390827019096,0.,-0.034899496702501));
#410=DIRECTION('',(0.,1.,0.));
#411=DIRECTION('',(0.,0.,1.));
#412=DIRECTION('',(0.,1.,0.));
#413=DIRECTION('',(0.,0.,1.));
#414=DIRECTION('',(0.,1.,0.));
#415=DIRECTION('',(0.,0.,1.));
#416=DIRECTION('',(0.,1.,0.));
#417=DIRECTION('',(0.034899496702501,0.,0.999390827019096));
#418=DIRECTION('',(0.999390827019096,0.,-0.034899496702501));
#419=DIRECTION('',(0.,1.,0.));
#420=DIRECTION('',(0.034899496702501,0.,-0.999390827019096));
#421=DIRECTION('',(-0.999390827019096,0.,-0.034899496702501));
#422=DIRECTION('',(0.,1.,0.));
#423=DIRECTION('',(0.,0.,1.));
#424=DIRECTION('',(0.,1.,0.));
#425=DIRECTION('',(0.,0.,1.));
#426=DIRECTION('',(0.,-1.,0.));
#427=DIRECTION('',(0.,0.,-1.));
#428=DIRECTION('',(0.,-1.,0.));
#429=DIRECTION('',(0.,-1.,0.));
#430=DIRECTION('',(0.707106781186548,0.,0.707106781186547));
#431=DIRECTION('',(0.707106781186547,0.,-0.707106781186548));
#432=DIRECTION('',(0.,-1.,0.));
#433=DIRECTION('',(-0.707106781186547,0.,0.707106781186548));
#434=DIRECTION('',(0.707106781186548,0.,0.707106781186547));
#435=DIRECTION('',(0.,-1.,0.));
#436=DIRECTION('',(-0.707106781186547,0.,-0.707106781186548));
#437=DIRECTION('',(-0.707106781186548,0.,0.707106781186547));
#438=DIRECTION('',(0.707106781186548,0.,-0.707106781186547));
#439=DIRECTION('',(-0.707106781186547,0.,-0.707106781186548));
#440=CARTESIAN_POINT('',(0.,0.,0.));
#441=CARTESIAN_POINT('',(118.4,58.0000000247248,4.9));
#442=CARTESIAN_POINT('',(113.5,58.0000000247248,9.8));
#443=CARTESIAN_POINT('',(123.3,58.0000000247248,0.));
#444=CARTESIAN_POINT('',(108.6,58.0000000247248,4.9));
#445=CARTESIAN_POINT('',(103.7,58.0000000247248,0.));
#446=CARTESIAN_POINT('',(108.6,58.0000000247248,-4.9));
#447=CARTESIAN_POINT('',(113.5,58.0000000247248,-9.8));
#448=CARTESIAN_POINT('',(118.4,58.0000000247248,-4.89999999999999));
#449=CARTESIAN_POINT('',(206.009134811526,58.,7.76158677654047));
#450=CARTESIAN_POINT('',(213.5,58.,7.5));
#451=CARTESIAN_POINT('',(124.811594185969,58.,10.5970673760224));
#452=CARTESIAN_POINT('',(213.5,58.0000000247248,0.));
#453=CARTESIAN_POINT('',(213.5,58.,-7.50000000000001));
#454=CARTESIAN_POINT('',(206.532308364607,58.,-7.74331715348915));
#455=CARTESIAN_POINT('',(124.811594185969,58.,-10.5970673760224));
#456=CARTESIAN_POINT('',(113.5,58.0000000247248,0.));
#457=CARTESIAN_POINT('',(113.5,58.0000000247248,0.));
#458=CARTESIAN_POINT('',(213.5,52.,3.30000000000003));
#459=CARTESIAN_POINT('',(213.5,58.,3.30000000000003));
#460=CARTESIAN_POINT('',(213.5,52.,3.30000000000003));
#461=CARTESIAN_POINT('',(213.5,58.,3.30000000000003));
#462=CARTESIAN_POINT('',(213.5,51.9999999752753,0.));
#463=CARTESIAN_POINT('',(213.5,52.,-3.30000000000003));
#464=CARTESIAN_POINT('',(213.5,58.,-3.30000000000003));
#465=CARTESIAN_POINT('',(213.5,52.,-3.30000000000003));
#466=CARTESIAN_POINT('',(213.5,58.,-3.30000000000003));
#467=CARTESIAN_POINT('',(213.5,52.,0.));
#468=CARTESIAN_POINT('',(213.5,66.,0.));
#469=CARTESIAN_POINT('',(213.5,66.,3.30000000000003));
#470=CARTESIAN_POINT('',(213.5,43.,0.));
#471=CARTESIAN_POINT('',(118.4,29.,4.9));
#472=CARTESIAN_POINT('',(123.3,29.,0.));
#473=CARTESIAN_POINT('',(113.5,29.,9.8));
#474=CARTESIAN_POINT('',(118.4,29.,-4.89999999999999));
#475=CARTESIAN_POINT('',(113.5,29.,-9.8));
#476=CARTESIAN_POINT('',(108.6,29.,-4.9));
#477=CARTESIAN_POINT('',(103.7,29.,0.));
#478=CARTESIAN_POINT('',(108.6,29.,4.9));
#479=CARTESIAN_POINT('',(113.5,29.,0.));
#480=CARTESIAN_POINT('',(113.5,29.,-15.));
#481=CARTESIAN_POINT('',(113.5,29.,0.));
#482=CARTESIAN_POINT('',(113.5,52.,0.));
#483=CARTESIAN_POINT('',(113.5,52.,-15.));
#484=CARTESIAN_POINT('',(113.5,16.5,0.));
#485=CARTESIAN_POINT('',(213.5,52.,7.00000000000001));
#486=CARTESIAN_POINT('',(227.5,52.,7.00000000000001));
#487=CARTESIAN_POINT('',(227.5,52.,-7.));
#488=CARTESIAN_POINT('',(213.5,52.,-7.00000000000001));
#489=CARTESIAN_POINT('',(213.5,51.9999999752753,7.00000000000001));
#490=CARTESIAN_POINT('',(213.5,51.9999999752753,-7.00000000000001));
#491=CARTESIAN_POINT('',(126.130355341649,52.,-10.5510152216902));
#492=CARTESIAN_POINT('',(124.8115941597,51.9999999752753,-10.5970673769397));
#493=CARTESIAN_POINT('',(213.5,52.,-7.5));
#494=CARTESIAN_POINT('',(213.5,51.9999999752753,0.));
#495=CARTESIAN_POINT('',(213.5,51.9999999752753,7.5));
#496=CARTESIAN_POINT('',(125.607181788568,52.,10.5692848447415));
#497=CARTESIAN_POINT('',(124.811594185986,52.,10.5970673760218));
#498=CARTESIAN_POINT('',(113.5,51.9999999752753,0.));
#499=CARTESIAN_POINT('',(113.5,51.9999999752753,0.));
#500=CARTESIAN_POINT('',(124.811594185969,58.,10.5970673760224));
#501=CARTESIAN_POINT('',(125.641490286716,57.2188956192019,10.5680867655861));
#502=CARTESIAN_POINT('',(126.1864694882,56.1295757873119,10.5490556725132));
#503=CARTESIAN_POINT('',(126.188165334224,53.8760426004884,10.5489964522651));
#504=CARTESIAN_POINT('',(125.642054785434,52.7816356911921,10.5680670528565));
#505=CARTESIAN_POINT('',(124.811594185977,52.0000000000075,10.5970673760221));
#506=CARTESIAN_POINT('',(124.811594185969,57.9999999999999,-10.5970673760224));
#507=CARTESIAN_POINT('',(125.641490291093,57.2188956150826,-10.5680867654332));
#508=CARTESIAN_POINT('',(126.18646949359,56.1295757751706,-10.549055672325));
#509=CARTESIAN_POINT('',(126.188165328861,53.8760425769769,-10.5489964524524));
#510=CARTESIAN_POINT('',(125.642054769816,52.7816356654801,-10.5680670534018));
#511=CARTESIAN_POINT('',(124.8115941597,51.9999999752753,-10.5970673769397));
#512=CARTESIAN_POINT('',(113.5,55.,0.));
#513=CARTESIAN_POINT('',(213.5,43.,7.50000000000001));
#514=CARTESIAN_POINT('',(213.5,55.,7.5));
#515=CARTESIAN_POINT('',(213.5,52.,-7.5));
#516=CARTESIAN_POINT('',(213.5,55.,-7.5));
#517=CARTESIAN_POINT('',(213.5,66.,0.));
#518=CARTESIAN_POINT('',(213.5,66.,7.50000000000001));
#519=CARTESIAN_POINT('',(213.5,43.,0.));
#520=CARTESIAN_POINT('',(217.5,66.,0.));
#521=CARTESIAN_POINT('',(123.3,128.42538628446,0.));
#522=CARTESIAN_POINT('',(113.5,128.42538628446,9.8));
#523=CARTESIAN_POINT('',(123.3,128.42538628446,0.));
#524=CARTESIAN_POINT('',(103.7,128.42538628446,0.));
#525=CARTESIAN_POINT('',(113.5,128.42538628446,9.8));
#526=CARTESIAN_POINT('',(113.5,128.42538628446,-9.8));
#527=CARTESIAN_POINT('',(103.7,128.42538628446,0.));
#528=CARTESIAN_POINT('',(113.5,128.42538628446,-9.8));
#529=(
GEOMETRIC_REPRESENTATION_CONTEXT(3)
GLOBAL_UNCERTAINTY_ASSIGNED_CONTEXT((#530))
GLOBAL_UNIT_ASSIGNED_CONTEXT((#536,#532,#531))
REPRESENTATION_CONTEXT('QB_100_N','TOP_LEVEL_ASSEMBLY_PART')
);
#530=UNCERTAINTY_MEASURE_WITH_UNIT(LENGTH_MEASURE(0.0508),#536,
'DISTANCE_ACCURACY_VALUE','Maximum Tolerance applied to model');
#531=(
NAMED_UNIT(*)
SI_UNIT($,.STERADIAN.)
SOLID_ANGLE_UNIT()
);
#532=(
CONVERSION_BASED_UNIT('DEGREE',#534)
NAMED_UNIT(#533)
PLANE_ANGLE_UNIT()
);
#533=DIMENSIONAL_EXPONENTS(0.,0.,0.,0.,0.,0.,0.);
#534=PLANE_ANGLE_MEASURE_WITH_UNIT(PLANE_ANGLE_MEASURE(0.0174532925),#535);
#535=(
NAMED_UNIT(*)
PLANE_ANGLE_UNIT()
SI_UNIT($,.RADIAN.)
);
#536=(
LENGTH_UNIT()
NAMED_UNIT(*)
SI_UNIT(.MILLI.,.METRE.)
);
ENDSEC;
END-ISO-10303-21;
